0
SECTION
2
HEADER
9
$INSUNITS
70
4
9
$ACADVER
1
AC1014
9
$HANDSEED
5
FFFF
0
ENDSEC
0
SECTION
2
TABLES
0
TABLE
2
VPORT
5
8
100
AcDbSymbolTable
0
ENDTAB
0
TABLE
2
LTYPE
5
5
100
AcDbSymbolTable
0
LTYPE
5
14
100
AcDbSymbolTableRecord
100
AcDbLinetypeTableRecord
2
BYBLOCK
70
0
0
LTYPE
5
15
100
AcDbSymbolTableRecord
100
AcDbLinetypeTableRecord
2
BYLAYER
70
0
0
ENDTAB
0
TABLE
2
LAYER
5
2
100
AcDbSymbolTable
70
2
0
LAYER
5
50
100
AcDbSymbolTableRecord
100
AcDbLayerTableRecord
2
0
70
0
6
CONTINUOUS
0
ENDTAB
0
TABLE
2
STYLE
5
3
100
AcDbSymbolTable
70
1
0
STYLE
5
11
100
AcDbSymbolTableRecord
100
AcDbTextStyleTableRecord
2
STANDARD
70
0
0
ENDTAB
0
TABLE
2
VIEW
5
6
100
AcDbSymbolTable
70
0
0
ENDTAB
0
TABLE
2
UCS
5
7
100
AcDbSymbolTable
70
0
0
ENDTAB
0
TABLE
2
APPID
5
9
100
AcDbSymbolTable
70
2
0
APPID
5
12
100
AcDbSymbolTableRecord
100
AcDbRegAppTableRecord
2
ACAD
70
0
0
ENDTAB
0
TABLE
2
DIMSTYLE
5
A
100
AcDbSymbolTable
70
1
0
ENDTAB
0
TABLE
2
BLOCK_RECORD
5
1
100
AcDbSymbolTable
70
1
0
BLOCK_RECORD
5
1F
100
AcDbSymbolTableRecord
100
AcDbBlockTableRecord
2
*MODEL_SPACE
0
BLOCK_RECORD
5
1B
100
AcDbSymbolTableRecord
100
AcDbBlockTableRecord
2
*PAPER_SPACE
0
ENDTAB
0
ENDSEC
0
SECTION
2
BLOCKS
0
BLOCK
5
20
100
AcDbEntity
100
AcDbBlockBegin
2
*MODEL_SPACE
0
ENDBLK
5
21
100
AcDbEntity
100
AcDbBlockEnd
0
BLOCK
5
1C
100
AcDbEntity
100
AcDbBlockBegin
2
*PAPER_SPACE
0
ENDBLK
5
1D
100
AcDbEntity
100
AcDbBlockEnd
0
ENDSEC
0
SECTION
2
ENTITIES
0
SPLINE
5
100
100
AcDbEntity
8
0
100
AcDbSpline
70
4
71
3
72
8
73
4
74
0
42
0.000000001
43
0.0000000001
44
0.0000000001
40
0
40
0
40
0
40
0
40
1
40
1
40
1
40
1
41
1
41
1
41
1
41
1
10
-397.55992364083005
20
185.94423682756099
30
0
10
-402.88941810871097
20
183.62566330092898
30
0
10
-407.40320036504755
20
191.77331857344114
30
0
10
-404.49430156144285
20
197.84811560857662
30
0
0
SPLINE
5
101
100
AcDbEntity
8
0
100
AcDbSpline
70
4
71
3
72
8
73
4
74
0
42
0.000000001
43
0.0000000001
44
0.0000000001
40
0
40
0
40
0
40
0
40
1
40
1
40
1
40
1
41
1
41
1
41
1
41
1
10
-404.49430156144285
20
197.84811560857662
30
0
10
-399.64144572999516
20
206.66123922381587
30
0
10
-388.37632527058355
20
209.55800863491697
30
0
10
-383.7969935794971
20
210.07390931189326
30
0
0
SPLINE
5
102
100
AcDbEntity
8
0
100
AcDbSpline
70
4
71
3
72
8
73
4
74
0
42
0.000000001
43
0.0000000001
44
0.0000000001
40
0
40
0
40
0
40
0
40
1
40
1
40
1
40
1
41
1
41
1
41
1
41
1
10
-383.7969935794971
20
210.07390931189326
30
0
10
-385.75802473476688
20
207.63332339446652
30
0
10
-384.61439629870722
20
204.57904093158447
30
0
10
-382.16417448758421
20
203.43059454867671
30
0
0
SPLINE
5
103
100
AcDbEntity
8
0
100
AcDbSpline
70
4
71
3
72
8
73
4
74
0
42
0.000000001
43
0.0000000001
44
0.0000000001
40
3.0428118299594104e-06
40
3.0428118299594104e-06
40
3.0428118299594104e-06
40
3.0428118299594104e-06
40
1
40
1
40
1
40
1
41
1
41
1
41
1
41
1
10
-382.16417593241152
20
203.43059146612296
30
0
10
-386.95221909587724
20
203.0928974489139
30
0
10
-390.19687216983004
20
200.10331910087734
30
0
10
-389.18827610257085
20
194.10245777298582
30
0
0
SPLINE
5
104
100
AcDbEntity
8
0
100
AcDbSpline
70
4
71
3
72
8
73
4
74
0
42
0.000000001
43
0.0000000001
44
0.0000000001
40
0
40
0
40
0
40
0
40
1
40
1
40
1
40
1
41
1
41
1
41
1
41
1
10
-389.18827610257085
20
194.10245777298582
30
0
10
-392.85219789250971
20
199.00345081022337
30
0
10
-400.97238241544926
20
195.63997449522702
30
0
10
-398.4572451099512
20
190.87650425661985
30
0
0
SPLINE
5
105
100
AcDbEntity
8
0
100
AcDbSpline
70
4
71
3
72
8
73
4
74
0
42
0.000000001
43
0.0000000001
44
0.0000000001
40
0
40
0
40
0
40
0
40
1
40
1
40
1
40
1
41
1
41
1
41
1
41
1
10
-398.4572451099512
20
190.87650425661985
30
0
10
-394.91491308389038
20
192.38426804393919
30
0
10
-393.19169409453735
20
188.42281690478146
30
0
10
-397.55992364083005
20
185.94423682756099
30
0
0
SPLINE
5
106
100
AcDbEntity
8
0
100
AcDbSpline
70
4
71
3
72
8
73
4
74
0
42
0.000000001
43
0.0000000001
44
0.0000000001
40
-1
40
-1
40
-1
40
-1
40
-3.0428118315221981e-06
40
-3.0428118315221981e-06
40
-3.0428118315221981e-06
40
-3.0428118315221981e-06
41
1
41
1
41
1
41
1
10
-378.90212863254885
20
183.81631030296381
30
0
10
-372.90126730465727
20
182.80771423570462
30
0
10
-369.91168895662071
20
186.05236730965743
30
0
10
-369.57399493941159
20
190.84041047312303
30
0
0
SPLINE
5
107
100
AcDbEntity
8
0
100
AcDbSpline
70
4
71
3
72
8
73
4
74
0
42
0.000000001
43
0.0000000001
44
0.0000000001
40
-1
40
-1
40
-1
40
-1
40
0
40
0
40
0
40
0
41
1
41
1
41
1
41
1
10
-369.57399185685796
20
190.84041191795041
30
0
10
-368.42554547395019
20
188.39019010682739
30
0
10
-365.37126301106809
20
187.24656167076779
30
0
10
-362.93067709364141
20
189.20759282603754
30
0
0
SPLINE
5
108
100
AcDbEntity
8
0
100
AcDbSpline
70
4
71
3
72
8
73
4
74
0
42
0.000000001
43
0.0000000001
44
0.0000000001
40
-1
40
-1
40
-1
40
-1
40
0
40
0
40
0
40
0
41
1
41
1
41
1
41
1
10
-362.93067709364141
20
189.20759282603754
30
0
10
-363.44657777061769
20
184.62826113495112
30
0
10
-366.3433471817188
20
173.36314067553957
30
0
10
-375.15647079695805
20
168.51028484409176
30
0
0
SPLINE
5
109
100
AcDbEntity
8
0
100
AcDbSpline
70
4
71
3
72
8
73
4
74
0
42
0.000000001
43
0.0000000001
44
0.0000000001
40
-1
40
-1
40
-1
40
-1
40
0
40
0
40
0
40
0
41
1
41
1
41
1
41
1
10
-375.15647079695805
20
168.51028484409176
30
0
10
-381.23126783209352
20
165.60138604048706
30
0
10
-389.37892310460569
20
170.11516829682367
30
0
10
-387.06034957797374
20
175.44466276470459
30
0
0
SPLINE
5
110
100
AcDbEntity
8
0
100
AcDbSpline
70
4
71
3
72
8
73
4
74
0
42
0.000000001
43
0.0000000001
44
0.0000000001
40
-1
40
-1
40
-1
40
-1
40
0
40
0
40
0
40
0
41
1
41
1
41
1
41
1
10
-387.06034957797374
20
175.44466276470459
30
0
10
-384.58176950075318
20
179.81289231099731
30
0
10
-380.62031836159548
20
178.08967332164428
30
0
10
-382.12808214891481
20
174.54734129558346
30
0
0
SPLINE
5
111
100
AcDbEntity
8
0
100
AcDbSpline
70
4
71
3
72
8
73
4
74
0
42
0.000000001
43
0.0000000001
44
0.0000000001
40
-1
40
-1
40
-1
40
-1
40
0
40
0
40
0
40
0
41
1
41
1
41
1
41
1
10
-382.12808214891481
20
174.54734129558346
30
0
10
-377.36461191030764
20
172.03220399008541
30
0
10
-374.00113559531127
20
180.1523885130249
30
0
10
-378.90212863254885
20
183.81631030296381
30
0
0
SPLINE
5
112
100
AcDbEntity
8
0
100
AcDbSpline
70
4
71
3
72
8
73
4
74
0
42
0.000000001
43
0.0000000001
44
0.0000000001
40
0
40
0
40
0
40
0
40
1
40
1
40
1
40
1
41
1
41
1
41
1
41
1
10
-292.77875069777463
20
212.33318828213987
30
0
10
-294.25659249940554
20
208.48973457807006
30
0
10
-300.39896757848999
20
204.99693442662348
30
0
10
-305.06764259972545
20
205.2221523104285
30
0
0
SPLINE
5
113
100
AcDbEntity
8
0
100
AcDbSpline
70
4
71
3
72
8
73
4
74
0
42
0.000000001
43
0.0000000001
44
0.0000000001
40
0
40
0
40
0
40
0
40
1
40
1
40
1
40
1
41
1
41
1
41
1
41
1
10
-305.06764259972545
20
205.2221523104285
30
0
10
-311.94027472783694
20
205.40037408111814
30
0
10
-316.51314022710085
20
209.86213096403318
30
0
10
-323.49751491193609
20
212.33318828213987
30
0
0
SPLINE
5
114
100
AcDbEntity
8
0
100
AcDbSpline
70
4
71
3
72
8
73
4
74
0
42
0.000000001
43
0.0000000001
44
0.0000000001
40
0
40
0
40
0
40
0
40
0.99999795275309478
40
0.99999795275309478
40
0.99999795275309478
40
0.99999795275309478
41
1
41
1
41
1
41
1
10
-323.49751491193609
20
212.33318828213987
30
0
10
-316.51315452584026
20
214.80424054138206
30
0
10
-311.94025118889789
20
219.265984214534
30
0
10
-305.06764254692939
20
219.44422315920551
30
0
0
LINE
5
115
100
AcDbEntity
8
0
100
AcDbLine
10
-305.06764254692939
20
219.44422315920551
30
0
11
-305.0676003973947
21
219.44422527033038
31
0
0
SPLINE
5
116
100
AcDbEntity
8
0
100
AcDbSpline
70
4
71
3
72
8
73
4
74
0
42
0.000000001
43
0.0000000001
44
0.0000000001
40
3.0096524539107315e-06
40
3.0096524539107315e-06
40
3.0096524539107315e-06
40
3.0096524539107315e-06
40
1
40
1
40
1
40
1
41
1
41
1
41
1
41
1
10
-305.06760044641766
20
219.44422628685132
30
0
10
-300.39893060544932
20
219.66937885073233
30
0
10
-294.2565457890509
20
216.17658815618537
30
0
10
-292.77875069777463
20
212.33318828213987
30
0
0
SPLINE
5
117
100
AcDbEntity
8
0
100
AcDbSpline
70
4
71
3
72
8
73
4
74
0
42
0.000000001
43
0.0000000001
44
0.0000000001
40
0
40
0
40
0
40
0
40
1
40
1
40
1
40
1
41
1
41
1
41
1
41
1
10
-380.94920662801883
20
209.30253066389037
30
0
10
-378.91611758348512
20
209.56899693474611
30
0
10
-375.9888767717041
20
209.71256329828242
30
0
10
-371.84852765879032
20
209.87683838072746
30
0
0
SPLINE
5
118
100
AcDbEntity
8
0
100
AcDbSpline
70
4
71
3
72
8
73
4
74
0
42
0.000000001
43
0.0000000001
44
0.0000000001
40
0
40
0
40
0
40
0
40
1
40
1
40
1
40
1
41
1
41
1
41
1
41
1
10
-371.84852765879032
20
209.87683838072746
30
0
10
-375.97129549197757
20
208.34278719920164
30
0
10
-378.02247296853761
20
207.65001715766843
30
0
10
-380.34058160556157
20
206.85835241767336
30
0
0
SPLINE
5
119
100
AcDbEntity
8
0
100
AcDbSpline
70
4
71
3
72
8
73
4
74
0
42
0.000000001
43
0.0000000001
44
0.0000000001
40
0
40
0
40
0
40
0
40
1
40
1
40
1
40
1
41
1
41
1
41
1
41
1
10
-380.34058160556157
20
206.85835241767336
30
0
10
-381.01551679121826
20
206.6902736929797
30
0
10
-381.69894677789677
20
207.10119384389645
30
0
10
-381.86698323989873
20
207.7761290295532
30
0
0
SPLINE
5
120
100
AcDbEntity
8
0
100
AcDbSpline
70
4
71
3
72
8
73
4
74
0
42
0.000000001
43
0.0000000001
44
0.0000000001
40
0
40
0
40
0
40
0
40
1
40
1
40
1
40
1
41
1
41
1
41
1
41
1
10
-381.86698323989873
20
207.7761290295532
30
0
10
-382.03506196459227
20
208.45106421520995
30
0
10
-381.62414181367558
20
209.13445193919677
30
0
10
-380.94920662801883
20
209.30253066389037
30
0
0
SPLINE
5
121
100
AcDbEntity
8
0
100
AcDbSpline
70
4
71
3
72
8
73
4
74
0
42
0.000000001
43
0.0000000001
44
0.0000000001
40
-1
40
-1
40
-1
40
-1
40
0
40
0
40
0
40
0
41
1
41
1
41
1
41
1
10
-357.02129623362555
20
232.90497606988399
30
0
10
-356.84366614061895
20
233.57746001942505
30
0
10
-356.15453069056764
20
233.97865975126217
30
0
10
-355.48204674102664
20
233.80102965825557
30
0
0
SPLINE
5
122
100
AcDbEntity
8
0
100
AcDbSpline
70
4
71
3
72
8
73
4
74
0
42
0.000000001
43
0.0000000001
44
0.0000000001
40
-1
40
-1
40
-1
40
-1
40
0
40
0
40
0
40
0
41
1
41
1
41
1
41
1
10
-355.48204674102664
20
233.80102965825557
30
0
10
-354.80952052879394
20
233.62344182794064
30
0
10
-354.40836305964842
20
232.93426411519772
30
0
10
-354.58599315265502
20
232.26178016565672
30
0
0
SPLINE
5
123
100
AcDbEntity
8
0
100
AcDbSpline
70
4
71
3
72
8
73
4
74
0
42
0.000000001
43
0.0000000001
44
0.0000000001
40
-1
40
-1
40
-1
40
-1
40
0
40
0
40
0
40
0
41
1
41
1
41
1
41
1
10
-354.58599315265502
20
232.26178016565672
30
0
10
-355.41045374137093
20
229.95512471807007
30
0
10
-356.13225825206791
20
227.91396349943113
30
0
10
-357.72463194807131
20
223.81338357936031
30
0
0
SPLINE
5
124
100
AcDbEntity
8
0
100
AcDbSpline
70
4
71
3
72
8
73
4
74
0
42
0.000000001
43
0.0000000001
44
0.0000000001
40
-1
40
-1
40
-1
40
-1
40
0
40
0
40
0
40
0
41
1
41
1
41
1
41
1
10
-357.72463194807131
20
223.81338357936031
30
0
10
-357.50165398692388
20
227.9509433546252
30
0
10
-357.3165433974952
20
230.87585971836543
30
0
10
-357.02129623362555
20
232.90497606988399
30
0
0
SPLINE
5
125
100
AcDbEntity
8
0
100
AcDbSpline
70
4
71
3
72
8
73
4
74
0
42
0.000000001
43
0.0000000001
44
0.0000000001
40
0
40
0
40
0
40
0
40
1
40
1
40
1
40
1
41
1
41
1
41
1
41
1
10
-357.02129623362555
20
192.41981096761714
30
0
10
-357.3165433974952
20
194.44892731913572
30
0
10
-357.50165398692388
20
197.37384368287593
30
0
10
-357.72463194807131
20
201.51140345814085
30
0
0
SPLINE
5
126
100
AcDbEntity
8
0
100
AcDbSpline
70
4
71
3
72
8
73
4
74
0
42
0.000000001
43
0.0000000001
44
0.0000000001
40
0
40
0
40
0
40
0
40
1
40
1
40
1
40
1
41
1
41
1
41
1
41
1
10
-357.72463194807131
20
201.51140345814085
30
0
10
-356.13225825206791
20
197.41082353807002
30
0
10
-355.41045374137093
20
195.36966231943114
30
0
10
-354.58599315265502
20
193.06300687184446
30
0
0
SPLINE
5
127
100
AcDbEntity
8
0
100
AcDbSpline
70
4
71
3
72
8
73
4
74
0
42
0.000000001
43
0.0000000001
44
0.0000000001
40
0
40
0
40
0
40
0
40
1
40
1
40
1
40
1
41
1
41
1
41
1
41
1
10
-354.58599315265502
20
193.06300687184446
30
0
10
-354.40836305964842
20
192.39052292230343
30
0
10
-354.80952052879394
20
191.70134520956054
30
0
10
-355.48204674102664
20
191.52375737924558
30
0
0
SPLINE
5
128
100
AcDbEntity
8
0
100
AcDbSpline
70
4
71
3
72
8
73
4
74
0
42
0.000000001
43
0.0000000001
44
0.0000000001
40
0
40
0
40
0
40
0
40
1
40
1
40
1
40
1
41
1
41
1
41
1
41
1
10
-355.48204674102664
20
191.52375737924558
30
0
10
-356.15453069056764
20
191.34612728623898
30
0
10
-356.84366614061895
20
191.74732701807616
30
0
10
-357.02129623362555
20
192.41981096761714
30
0
0
SPLINE
5
129
100
AcDbEntity
8
0
100
AcDbSpline
70
4
71
3
72
8
73
4
74
0
42
0.000000001
43
0.0000000001
44
0.0000000001
40
0
40
0
40
0
40
0
40
1
40
1
40
1
40
1
41
1
41
1
41
1
41
1
10
-335.45591256518065
20
237.54871610304562
30
0
10
-338.2526039224536
20
230.70638632484736
30
0
10
-333.63189705624143
20
229.53097634466673
30
0
10
-340.52037769372197
20
223.35812986490231
30
0
0
SPLINE
5
130
100
AcDbEntity
8
0
100
AcDbSpline
70
4
71
3
72
8
73
4
74
0
42
0.000000001
43
0.0000000001
44
0.0000000001
40
0
40
0
40
0
40
0
40
1
40
1
40
1
40
1
41
1
41
1
41
1
41
1
10
-340.52037769372197
20
223.35812986490231
30
0
10
-339.40028957691169
20
226.45902807667483
30
0
10
-342.51040105546389
20
229.40947110617188
30
0
10
-345.19357482296385
20
227.81105384526242
30
0
0
SPLINE
5
131
100
AcDbEntity
8
0
100
AcDbSpline
70
4
71
3
72
8
73
4
74
0
42
0.000000001
43
0.0000000001
44
0.0000000001
40
0
40
0
40
0
40
0
40
1
40
1
40
1
40
1
41
1
41
1
41
1
41
1
10
-345.19357482296385
20
227.81105384526242
30
0
10
-343.59515756205445
20
230.49422761276242
30
0
10
-346.54564285424317
20
233.60433909131467
30
0
10
-349.64649880332399
20
232.48425097450436
30
0
0
SPLINE
5
132
100
AcDbEntity
8
0
100
AcDbSpline
70
4
71
3
72
8
73
4
74
0
42
0.000000001
43
0.0000000001
44
0.0000000001
40
0
40
0
40
0
40
0
40
1
40
1
40
1
40
1
41
1
41
1
41
1
41
1
10
-349.64649880332399
20
232.48425097450436
30
0
10
-343.47365232355958
20
239.37268934929321
30
0
10
-342.29820008068725
20
234.75202474577273
30
0
10
-335.45591256518065
20
237.54871610304562
30
0
0
SPLINE
5
133
100
AcDbEntity
8
0
100
AcDbSpline
70
4
71
3
72
8
73
4
74
0
42
0.000000001
43
0.0000000001
44
0.0000000001
40
-1
40
-1
40
-1
40
-1
40
0
40
0
40
0
40
0
41
1
41
1
41
1
41
1
10
-416.27519590975589
20
219.44418199115961
30
0
10
-409.40256378164435
20
219.26596022046996
30
0
10
-404.82965601968874
20
214.80420333755492
30
0
10
-397.84528133485355
20
212.33314601944818
30
0
0
SPLINE
5
134
100
AcDbEntity
8
0
100
AcDbSpline
70
4
71
3
72
8
73
4
74
0
42
0.000000001
43
0.0000000001
44
0.0000000001
40
-1
40
-1
40
-1
40
-1
40
0
40
0
40
0
40
0
41
1
41
1
41
1
41
1
10
-397.84528133485355
20
212.33314601944818
30
0
10
-404.82969828238038
20
209.86208870134149
30
0
10
-409.40256378164435
20
205.40033181842645
30
0
10
-416.27519590975589
20
205.22211004773681
30
0
0
SPLINE
5
135
100
AcDbEntity
8
0
100
AcDbSpline
70
4
71
3
72
8
73
4
74
0
42
0.000000001
43
0.0000000001
44
0.0000000001
40
-1
40
-1
40
-1
40
-1
40
-0.13212285065366058
40
-0.13212285065366058
40
-0.13212285065366058
40
-0.13212285065366058
41
1
41
1
41
1
41
1
10
-416.27519590975589
20
205.22211004773681
30
0
10
-420.32703227841012
20
205.02664859275831
30
0
10
-425.48887536754393
20
207.6316382770824
30
0
10
-427.74819644817694
20
210.83585181112639
30
0
0
SPLINE
5
136
100
AcDbEntity
8
0
100
AcDbSpline
70
4
71
3
72
8
73
4
74
0
42
0.000000001
43
0.0000000001
44
0.0000000001
40
-0.13212285065360352
40
-0.13212285065360352
40
-0.13212285065360352
40
-0.13212285065360352
40
0
40
0
40
0
40
0
41
1
41
1
41
1
41
1
10
-427.74819644817751
20
210.83585181112699
30
0
10
-428.09214828737481
20
211.32365106536434
30
0
10
-428.36883114006008
20
211.82533795971131
30
0
10
-428.5640878117066
20
212.33314601944818
30
0
0
SPLINE
5
137
100
AcDbEntity
8
0
100
AcDbSpline
70
4
71
3
72
8
73
4
74
0
42
0.000000001
43
0.0000000001
44
0.0000000001
40
-1
40
-1
40
-1
40
-1
40
0
40
0
40
0
40
0
41
1
41
1
41
1
41
1
10
-428.5640878117066
20
212.33314601944818
30
0
10
-427.08628827276732
20
216.17655746082636
30
0
10
-420.94387093099124
20
219.66935761227293
30
0
10
-416.27519590975589
20
219.44418199115961
30
0
0
SPLINE
5
138
100
AcDbEntity
8
0
100
AcDbSpline
70
4
71
3
72
8
73
4
74
0
42
0.000000001
43
0.0000000001
44
0.0000000001
40
-1
40
-1
40
-1
40
-1
40
-3.0428118435878432e-06
40
-3.0428118435878432e-06
40
-3.0428118435878432e-06
40
-3.0428118435878432e-06
41
1
41
1
41
1
41
1
10
-342.44070987693237
20
240.85002399862421
30
0
10
-348.44157120482396
20
241.85862006588343
30
0
10
-351.43114955286029
20
238.61396699193079
30
0
10
-351.76884357006946
20
233.82592382846522
30
0
0
SPLINE
5
139
100
AcDbEntity
8
0
100
AcDbSpline
70
4
71
3
72
8
73
4
74
0
42
0.000000001
43
0.0000000001
44
0.0000000001
40
-1
40
-1
40
-1
40
-1
40
0
40
0
40
0
40
0
41
1
41
1
41
1
41
1
10
-351.76884665262332
20
233.8259223836377
30
0
10
-352.91729303553103
20
236.27614419476072
30
0
10
-355.97157549841307
20
237.41977263082026
30
0
10
-358.41216141583982
20
235.45874147555054
30
0
0
SPLINE
5
140
100
AcDbEntity
8
0
100
AcDbSpline
70
4
71
3
72
8
73
4
74
0
42
0.000000001
43
0.0000000001
44
0.0000000001
40
-1
40
-1
40
-1
40
-1
40
0
40
0
40
0
40
0
41
1
41
1
41
1
41
1
10
-358.41216141583982
20
235.45874147555054
30
0
10
-357.89626073886353
20
240.03807316663696
30
0
10
-354.99949132776243
20
251.30319362604854
30
0
10
-346.18636771252318
20
256.15604945749629
30
0
0
SPLINE
5
141
100
AcDbEntity
8
0
100
AcDbSpline
70
4
71
3
72
8
73
4
74
0
42
0.000000001
43
0.0000000001
44
0.0000000001
40
-1
40
-1
40
-1
40
-1
40
0
40
0
40
0
40
0
41
1
41
1
41
1
41
1
10
-346.18636771252318
20
256.15604945749629
30
0
10
-340.11157067738765
20
259.06494826110105
30
0
10
-331.96391540487554
20
254.55116600476433
30
0
10
-334.2824889315076
20
249.22167153688352
30
0
0
SPLINE
5
142
100
AcDbEntity
8
0
100
AcDbSpline
70
4
71
3
72
8
73
4
74
0
42
0.000000001
43
0.0000000001
44
0.0000000001
40
-1
40
-1
40
-1
40
-1
40
0
40
0
40
0
40
0
41
1
41
1
41
1
41
1
10
-334.2824889315076
20
249.22167153688352
30
0
10
-336.76106900872804
20
244.85344199059082
30
0
10
-340.72252014788575
20
246.57666097994382
30
0
10
-339.21475636056641
20
250.11899300600462
30
0
0
SPLINE
5
143
100
AcDbEntity
8
0
100
AcDbSpline
70
4
71
3
72
8
73
4
74
0
42
0.000000001
43
0.0000000001
44
0.0000000001
40
-1
40
-1
40
-1
40
-1
40
0
40
0
40
0
40
0
41
1
41
1
41
1
41
1
10
-339.21475636056641
20
250.11899300600462
30
0
10
-343.97822659917352
20
252.63413031150264
30
0
10
-347.3417029141699
20
244.51394578856321
30
0
10
-342.44070987693237
20
240.85002399862421
30
0
0
SPLINE
5
144
100
AcDbEntity
8
0
100
AcDbSpline
70
4
71
3
72
8
73
4
74
0
42
0.000000001
43
0.0000000001
44
0.0000000001
40
0
40
0
40
0
40
0
40
1
40
1
40
1
40
1
41
1
41
1
41
1
41
1
10
-349.83816010995849
20
195.59910647240116
30
0
10
-350.81155442405026
20
197.40385019394773
30
0
10
-351.98873943728029
20
200.08778468989746
30
0
10
-353.617459048103
20
203.89785086756348
30
0
0
SPLINE
5
145
100
AcDbEntity
8
0
100
AcDbSpline
70
4
71
3
72
8
73
4
74
0
42
0.000000001
43
0.0000000001
44
0.0000000001
40
0
40
0
40
0
40
0
40
1
40
1
40
1
40
1
41
1
41
1
41
1
41
1
10
-353.617459048103
20
203.89785086756348
30
0
10
-350.71511096170411
20
200.59227444012819
30
0
10
-349.33692458698488
20
198.92256001840451
30
0
10
-347.77126091210448
20
197.03865827539664
30
0
0
SPLINE
5
146
100
AcDbEntity
8
0
100
AcDbSpline
70
4
71
3
72
8
73
4
74
0
42
0.000000001
43
0.0000000001
44
0.0000000001
40
0
40
0
40
0
40
0
40
1
40
1
40
1
40
1
41
1
41
1
41
1
41
1
10
-347.77126091210448
20
197.03865827539664
30
0
10
-347.37373803444092
20
196.46790062465817
30
0
10
-347.51417695879519
20
195.68295565263548
30
0
10
-348.08493460953372
20
195.28543277497189
30
0
0
SPLINE
5
147
100
AcDbEntity
8
0
100
AcDbSpline
70
4
71
3
72
8
73
4
74
0
42
0.000000001
43
0.0000000001
44
0.0000000001
40
0
40
0
40
0
40
0
40
1
40
1
40
1
40
1
41
1
41
1
41
1
41
1
10
-348.08493460953372
20
195.28543277497189
30
0
10
-348.65569226027225
20
194.8879098973083
30
0
10
-349.44063723229499
20
195.02834882166255
30
0
10
-349.83816010995849
20
195.59910647240116
30
0
0
SPLINE
5
148
100
AcDbEntity
8
0
100
AcDbSpline
70
4
71
3
72
8
73
4
74
0
42
0.000000001
43
0.0000000001
44
0.0000000001
40
0
40
0
40
0
40
0
40
1
40
1
40
1
40
1
41
1
41
1
41
1
41
1
10
-340.39363188146245
20
216.02225637361087
30
0
10
-342.42672092599605
20
215.7557901027551
30
0
10
-345.35396173777713
20
215.61222373921873
30
0
10
-349.49431085069091
20
215.44794865677369
30
0
0
SPLINE
5
149
100
AcDbEntity
8
0
100
AcDbSpline
70
4
71
3
72
8
73
4
74
0
42
0.000000001
43
0.0000000001
44
0.0000000001
40
0
40
0
40
0
40
0
40
1
40
1
40
1
40
1
41
1
41
1
41
1
41
1
10
-349.49431085069091
20
215.44794865677369
30
0
10
-345.37154301750371
20
216.98199983829952
30
0
10
-343.32036554094367
20
217.67476987983272
30
0
10
-341.00225690391966
20
218.46643461982785
30
0
0
SPLINE
5
150
100
AcDbEntity
8
0
100
AcDbSpline
70
4
71
3
72
8
73
4
74
0
42
0.000000001
43
0.0000000001
44
0.0000000001
40
0
40
0
40
0
40
0
40
1
40
1
40
1
40
1
41
1
41
1
41
1
41
1
10
-341.00225690391966
20
218.46643461982785
30
0
10
-340.32732171826297
20
218.63451334452148
30
0
10
-339.64389173158452
20
218.2235931936047
30
0
10
-339.4758552695825
20
217.54865800794803
30
0
0
SPLINE
5
151
100
AcDbEntity
8
0
100
AcDbSpline
70
4
71
3
72
8
73
4
74
0
42
0.000000001
43
0.0000000001
44
0.0000000001
40
0
40
0
40
0
40
0
40
1
40
1
40
1
40
1
41
1
41
1
41
1
41
1
10
-339.4758552695825
20
217.54865800794803
30
0
10
-339.30777654488895
20
216.87372282229126
30
0
10
-339.7186966958057
20
216.19033509830444
30
0
10
-340.39363188146245
20
216.02225637361087
30
0
0
SPLINE
5
152
100
AcDbEntity
8
0
100
AcDbSpline
70
4
71
3
72
8
73
4
74
0
42
0.000000001
43
0.0000000001
44
0.0000000001
40
0
40
0
40
0
40
0
40
1
40
1
40
1
40
1
41
1
41
1
41
1
41
1
10
-364.32154227585579
20
232.82640972610594
30
0
10
-364.02629511198609
20
230.79729337458735
30
0
10
-363.84118452255734
20
227.87237701084712
30
0
10
-363.61820656140992
20
223.73481723558226
30
0
0
SPLINE
5
153
100
AcDbEntity
8
0
100
AcDbSpline
70
4
71
3
72
8
73
4
74
0
42
0.000000001
43
0.0000000001
44
0.0000000001
40
0
40
0
40
0
40
0
40
1
40
1
40
1
40
1
41
1
41
1
41
1
41
1
10
-363.61820656140992
20
223.73481723558226
30
0
10
-365.21058025741343
20
227.83539715565303
30
0
10
-365.93238476811041
20
229.87655837429199
30
0
10
-366.7568453568262
20
232.18321382187867
30
0
0
SPLINE
5
154
100
AcDbEntity
8
0
100
AcDbSpline
70
4
71
3
72
8
73
4
74
0
42
0.000000001
43
0.0000000001
44
0.0000000001
40
0
40
0
40
0
40
0
40
1
40
1
40
1
40
1
41
1
41
1
41
1
41
1
10
-366.7568453568262
20
232.18321382187867
30
0
10
-366.9344754498328
20
232.85569777141967
30
0
10
-366.53331798068723
20
233.54487548416259
30
0
10
-365.86079176845459
20
233.72246331447752
30
0
0
SPLINE
5
155
100
AcDbEntity
8
0
100
AcDbSpline
70
4
71
3
72
8
73
4
74
0
42
0.000000001
43
0.0000000001
44
0.0000000001
40
0
40
0
40
0
40
0
40
1
40
1
40
1
40
1
41
1
41
1
41
1
41
1
10
-365.86079176845459
20
233.72246331447752
30
0
10
-365.18830781891359
20
233.90009340748409
30
0
10
-364.49917236886233
20
233.49889367564697
30
0
10
-364.32154227585579
20
232.82640972610594
30
0
0
SPLINE
5
156
100
AcDbEntity
8
0
100
AcDbSpline
70
4
71
3
72
8
73
4
74
0
42
0.000000001
43
0.0000000001
44
0.0000000001
40
0
40
0
40
0
40
0
40
1
40
1
40
1
40
1
41
1
41
1
41
1
41
1
10
-385.88692594430051
20
187.11761819854246
30
0
10
-383.09023458702762
20
193.95994797674069
30
0
10
-387.7109414532398
20
195.13535795692135
30
0
10
-380.82246081575931
20
201.3082044366858
30
0
0
SPLINE
5
157
100
AcDbEntity
8
0
100
AcDbSpline
70
4
71
3
72
8
73
4
74
0
42
0.000000001
43
0.0000000001
44
0.0000000001
40
0
40
0
40
0
40
0
40
1
40
1
40
1
40
1
41
1
41
1
41
1
41
1
10
-380.82246081575931
20
201.3082044366858
30
0
10
-381.94254893256959
20
198.20730622491328
30
0
10
-378.83243745401734
20
195.25686319541623
30
0
10
-376.14926368651737
20
196.85528045632563
30
0
0
SPLINE
5
158
100
AcDbEntity
8
0
100
AcDbSpline
70
4
71
3
72
8
73
4
74
0
42
0.000000001
43
0.0000000001
44
0.0000000001
40
0
40
0
40
0
40
0
40
1
40
1
40
1
40
1
41
1
41
1
41
1
41
1
10
-376.14926368651737
20
196.85528045632563
30
0
10
-377.74768094742677
20
194.17210668882569
30
0
10
-374.797195655238
20
191.06199521027344
30
0
10
-371.69633970615729
20
192.18208332708375
30
0
0
SPLINE
5
159
100
AcDbEntity
8
0
100
AcDbSpline
70
4
71
3
72
8
73
4
74
0
42
0.000000001
43
0.0000000001
44
0.0000000001
40
0
40
0
40
0
40
0
40
1
40
1
40
1
40
1
41
1
41
1
41
1
41
1
10
-371.69633970615729
20
192.18208332708375
30
0
10
-377.86918618592159
20
185.29364495229487
30
0
10
-379.04463842879397
20
189.91430955581538
30
0
10
-385.88692594430051
20
187.11761819854246
30
0
0
SPLINE
5
160
100
AcDbEntity
8
0
100
AcDbSpline
70
4
71
3
72
8
73
4
74
0
42
0.000000001
43
0.0000000001
44
0.0000000001
40
-1
40
-1
40
-1
40
-1
40
0
40
0
40
0
40
0
41
1
41
1
41
1
41
1
10
-360.67144038608649
20
144.4404985938281
30
0
10
-364.51485182746461
20
145.91829813276729
30
0
10
-368.00765197891116
20
152.06071547454343
30
0
10
-367.78247635779786
20
156.72939049577877
30
0
0
SPLINE
5
161
100
AcDbEntity
8
0
100
AcDbSpline
70
4
71
3
72
8
73
4
74
0
42
0.000000001
43
0.0000000001
44
0.0000000001
40
-1
40
-1
40
-1
40
-1
40
0
40
0
40
0
40
0
41
1
41
1
41
1
41
1
10
-367.78247635779786
20
156.72939049577877
30
0
10
-367.60425458710819
20
163.60202262389038
30
0
10
-363.14249770419315
20
168.1749303858459
30
0
10
-360.67144038608649
20
175.15930507068111
30
0
0
SPLINE
5
162
100
AcDbEntity
8
0
100
AcDbSpline
70
4
71
3
72
8
73
4
74
0
42
0.000000001
43
0.0000000001
44
0.0000000001
40
-1
40
-1
40
-1
40
-1
40
0
40
0
40
0
40
0
41
1
41
1
41
1
41
1
10
-360.67144038608649
20
175.15930507068111
30
0
10
-358.20038306797971
20
168.17488812315432
30
0
10
-353.73862618506479
20
163.60202262389038
30
0
10
-353.560404414375
20
156.72939049577877
30
0
0
SPLINE
5
163
100
AcDbEntity
8
0
100
AcDbSpline
70
4
71
3
72
8
73
4
74
0
42
0.000000001
43
0.0000000001
44
0.0000000001
40
-1
40
-1
40
-1
40
-1
40
0
40
0
40
0
40
0
41
1
41
1
41
1
41
1
10
-353.560404414375
20
156.72939049577877
30
0
10
-353.33518653057013
20
152.06071547454343
30
0
10
-356.82798668201661
20
145.91834039545896
30
0
10
-360.67144038608649
20
144.4404985938281
30
0
0
SPLINE
5
164
100
AcDbEntity
8
0
100
AcDbSpline
70
4
71
3
72
8
73
4
74
0
42
0.000000001
43
0.0000000001
44
0.0000000001
40
0
40
0
40
0
40
0
40
1
40
1
40
1
40
1
41
1
41
1
41
1
41
1
10
-360.67144038608649
20
280.22583570775998
30
0
10
-356.82798668201661
20
278.74799390612912
30
0
10
-353.33518653057013
20
272.60561882704468
30
0
10
-353.560404414375
20
267.93694380580934
30
0
0
SPLINE
5
165
100
AcDbEntity
8
0
100
AcDbSpline
70
4
71
3
72
8
73
4
74
0
42
0.000000001
43
0.0000000001
44
0.0000000001
40
0
40
0
40
0
40
0
40
1
40
1
40
1
40
1
41
1
41
1
41
1
41
1
10
-353.560404414375
20
267.93694380580934
30
0
10
-353.73862618506479
20
261.06431167769767
30
0
10
-358.20038306797971
20
256.49144617843382
30
0
10
-360.67144038608649
20
249.50707149359863
30
0
0
SPLINE
5
166
100
AcDbEntity
8
0
100
AcDbSpline
70
4
71
3
72
8
73
4
74
0
42
0.000000001
43
0.0000000001
44
0.0000000001
40
0
40
0
40
0
40
0
40
0.99999795275309888
40
0.99999795275309888
40
0.99999795275309888
40
0.99999795275309888
41
1
41
1
41
1
41
1
10
-360.67144038608649
20
249.50707149359863
30
0
10
-363.14249264532873
20
256.4914318796944
30
0
10
-367.60423631848056
20
261.06433521663678
30
0
10
-367.78247526315204
20
267.93694385860533
30
0
0
LINE
5
167
100
AcDbEntity
8
0
100
AcDbLine
10
-367.78247526315215
20
267.93694385860533
30
0
11
-367.78247737427699
21
267.93698600814002
31
0
0
SPLINE
5
168
100
AcDbEntity
8
0
100
AcDbSpline
70
4
71
3
72
8
73
4
74
0
42
0.000000001
43
0.0000000001
44
0.0000000001
40
3.0096524487652189e-06
40
3.0096524487652189e-06
40
3.0096524487652189e-06
40
3.0096524487652189e-06
40
1
40
1
40
1
40
1
41
1
41
1
41
1
41
1
10
-367.78247839079779
20
267.93698595911695
30
0
10
-368.00763095467892
20
272.60565580008523
30
0
10
-364.5148402601319
20
278.74804061648382
30
0
10
-360.67144038608649
20
280.22583570775998
30
0
0
SPLINE
5
169
100
AcDbEntity
8
0
100
AcDbSpline
70
4
71
3
72
8
73
4
74
0
42
0.000000001
43
0.0000000001
44
0.0000000001
40
0
40
0
40
0
40
0
40
1
40
1
40
1
40
1
41
1
41
1
41
1
41
1
10
-323.78291486865112
20
238.72209747402707
30
0
10
-318.45342040077026
20
241.04067100065916
30
0
10
-313.93963814443362
20
232.89301572814696
30
0
10
-316.84853694803837
20
226.81821869301146
30
0
0
SPLINE
5
170
100
AcDbEntity
8
0
100
AcDbSpline
70
4
71
3
72
8
73
4
74
0
42
0.000000001
43
0.0000000001
44
0.0000000001
40
0
40
0
40
0
40
0
40
1
40
1
40
1
40
1
41
1
41
1
41
1
41
1
10
-316.84853694803837
20
226.81821869301146
30
0
10
-321.70139277948607
20
218.00509507777221
30
0
10
-332.96651323889768
20
215.10832566667113
30
0
10
-337.54584492998413
20
214.59242498969485
30
0
0
SPLINE
5
171
100
AcDbEntity
8
0
100
AcDbSpline
70
4
71
3
72
8
73
4
74
0
42
0.000000001
43
0.0000000001
44
0.0000000001
40
0
40
0
40
0
40
0
40
1
40
1
40
1
40
1
41
1
41
1
41
1
41
1
10
-337.54584492998413
20
214.59242498969485
30
0
10
-335.58481377471435
20
217.03301090712159
30
0
10
-336.72844221077401
20
220.08729337000361
30
0
10
-339.17866402189696
20
221.23573975291134
30
0
0
SPLINE
5
172
100
AcDbEntity
8
0
100
AcDbSpline
70
4
71
3
72
8
73
4
74
0
42
0.000000001
43
0.0000000001
44
0.0000000001
40
3.0428118415778547e-06
40
3.0428118415778547e-06
40
3.0428118415778547e-06
40
3.0428118415778547e-06
40
1
40
1
40
1
40
1
41
1
41
1
41
1
41
1
10
-339.17866257706947
20
221.23574283546517
30
0
10
-334.39061941360387
20
221.57343685267423
30
0
10
-331.1459663396513
20
224.56301520071079
30
0
10
-332.15456240691037
20
230.56387652860229
30
0
0
SPLINE
5
173
100
AcDbEntity
8
0
100
AcDbSpline
70
4
71
3
72
8
73
4
74
0
42
0.000000001
43
0.0000000001
44
0.0000000001
40
0
40
0
40
0
40
0
40
1
40
1
40
1
40
1
41
1
41
1
41
1
41
1
10
-332.15456240691037
20
230.56387652860229
30
0
10
-328.49064061697152
20
225.66288349136474
30
0
10
-320.37045609403202
20
229.02635980636109
30
0
10
-322.88559339953002
20
233.7898300449682
30
0
0
SPLINE
5
174
100
AcDbEntity
8
0
100
AcDbSpline
70
4
71
3
72
8
73
4
74
0
42
0.000000001
43
0.0000000001
44
0.0000000001
40
0
40
0
40
0
40
0
40
1
40
1
40
1
40
1
41
1
41
1
41
1
41
1
10
-322.88559339953002
20
233.7898300449682
30
0
10
-326.42792542559079
20
232.28206625764892
30
0
10
-328.15114441494387
20
236.24351739680662
30
0
10
-323.78291486865112
20
238.72209747402707
30
0
0
SPLINE
5
175
100
AcDbEntity
8
0
100
AcDbSpline
70
4
71
3
72
8
73
4
74
0
42
0.000000001
43
0.0000000001
44
0.0000000001
40
-1
40
-1
40
-1
40
-1
40
-3.0428118385308748e-06
40
-3.0428118385308748e-06
40
-3.0428118385308748e-06
40
-3.0428118385308748e-06
41
1
41
1
41
1
41
1
10
-389.18827610257085
20
230.56387652860229
30
0
10
-390.19687216983004
20
224.56301520071079
30
0
10
-386.9522190958773
20
221.57343685267423
30
0
10
-382.16417593241169
20
221.23574283546517
30
0
0
SPLINE
5
176
100
AcDbEntity
8
0
100
AcDbSpline
70
4
71
3
72
8
73
4
74
0
42
0.000000001
43
0.0000000001
44
0.0000000001
40
-1
40
-1
40
-1
40
-1
40
0
40
0
40
0
40
0
41
1
41
1
41
1
41
1
10
-382.16417448758421
20
221.23573975291134
30
0
10
-384.61439629870722
20
220.08729337000361
30
0
10
-385.75802473476688
20
217.03301090712159
30
0
10
-383.7969935794971
20
214.59242498969485
30
0
0
SPLINE
5
177
100
AcDbEntity
8
0
100
AcDbSpline
70
4
71
3
72
8
73
4
74
0
42
0.000000001
43
0.0000000001
44
0.0000000001
40
-1
40
-1
40
-1
40
-1
40
0
40
0
40
0
40
0
41
1
41
1
41
1
41
1
10
-383.7969935794971
20
214.59242498969485
30
0
10
-388.37632527058355
20
215.10832566667113
30
0
10
-399.64144572999516
20
218.00509507777221
30
0
10
-404.49430156144285
20
226.81821869301146
30
0
0
SPLINE
5
178
100
AcDbEntity
8
0
100
AcDbSpline
70
4
71
3
72
8
73
4
74
0
42
0.000000001
43
0.0000000001
44
0.0000000001
40
-1
40
-1
40
-1
40
-1
40
0
40
0
40
0
40
0
41
1
41
1
41
1
41
1
10
-404.49430156144285
20
226.81821869301146
30
0
10
-407.40320036504755
20
232.89301572814696
30
0
10
-402.88941810871097
20
241.04067100065916
30
0
10
-397.55992364083005
20
238.72209747402707
30
0
0
SPLINE
5
179
100
AcDbEntity
8
0
100
AcDbSpline
70
4
71
3
72
8
73
4
74
0
42
0.000000001
43
0.0000000001
44
0.0000000001
40
-1
40
-1
40
-1
40
-1
40
0
40
0
40
0
40
0
41
1
41
1
41
1
41
1
10
-397.55992364083005
20
238.72209747402707
30
0
10
-393.19169409453735
20
236.24351739680662
30
0
10
-394.91491308389038
20
232.28206625764892
30
0
10
-398.4572451099512
20
233.7898300449682
30
0
0
SPLINE
5
180
100
AcDbEntity
8
0
100
AcDbSpline
70
4
71
3
72
8
73
4
74
0
42
0.000000001
43
0.0000000001
44
0.0000000001
40
-1
40
-1
40
-1
40
-1
40
0
40
0
40
0
40
0
41
1
41
1
41
1
41
1
10
-398.4572451099512
20
233.7898300449682
30
0
10
-400.97238241544926
20
229.02635980636109
30
0
10
-392.85219789250971
20
225.66288349136474
30
0
10
-389.18827610257085
20
230.56387652860229
30
0
0
SPLINE
5
181
100
AcDbEntity
8
0
100
AcDbSpline
70
4
71
3
72
8
73
4
74
0
42
0.000000001
43
0.0000000001
44
0.0000000001
40
-1
40
-1
40
-1
40
-1
40
0
40
0
40
0
40
0
41
1
41
1
41
1
41
1
10
-364.32154227585579
20
192.49837731139522
30
0
10
-364.49917236886233
20
191.82589336185424
30
0
10
-365.18830781891359
20
191.42469363001706
30
0
10
-365.86079176845459
20
191.60232372302363
30
0
0
SPLINE
5
182
100
AcDbEntity
8
0
100
AcDbSpline
70
4
71
3
72
8
73
4
74
0
42
0.000000001
43
0.0000000001
44
0.0000000001
40
-1
40
-1
40
-1
40
-1
40
0
40
0
40
0
40
0
41
1
41
1
41
1
41
1
10
-365.86079176845459
20
191.60232372302363
30
0
10
-366.53331798068723
20
191.77991155333865
30
0
10
-366.9344754498328
20
192.46908926608148
30
0
10
-366.7568453568262
20
193.14157321562254
30
0
0
SPLINE
5
183
100
AcDbEntity
8
0
100
AcDbSpline
70
4
71
3
72
8
73
4
74
0
42
0.000000001
43
0.0000000001
44
0.0000000001
40
-1
40
-1
40
-1
40
-1
40
0
40
0
40
0
40
0
41
1
41
1
41
1
41
1
10
-366.7568453568262
20
193.14157321562254
30
0
10
-365.93238476811041
20
195.44822866320919
30
0
10
-365.21058025741343
20
197.48938988184813
30
0
10
-363.61820656140992
20
201.5899698019189
30
0
0
SPLINE
5
184
100
AcDbEntity
8
0
100
AcDbSpline
70
4
71
3
72
8
73
4
74
0
42
0.000000001
43
0.0000000001
44
0.0000000001
40
-1
40
-1
40
-1
40
-1
40
0
40
0
40
0
40
0
41
1
41
1
41
1
41
1
10
-363.61820656140992
20
201.5899698019189
30
0
10
-363.84118452255734
20
197.45241002665404
30
0
10
-364.02629511198609
20
194.5274936629138
30
0
10
-364.32154227585579
20
192.49837731139522
30
0
0
SPLINE
5
185
100
AcDbEntity
8
0
100
AcDbSpline
70
4
71
3
72
8
73
4
74
0
42
0.000000001
43
0.0000000001
44
0.0000000001
40
-1
40
-1
40
-1
40
-1
40
0
40
0
40
0
40
0
41
1
41
1
41
1
41
1
10
-349.83816010995849
20
229.72568056510005
30
0
10
-349.44063723229499
20
230.29643821583858
30
0
10
-348.65569226027225
20
230.43687714019285
30
0
10
-348.08493460953372
20
230.03935426252926
30
0
0
SPLINE
5
186
100
AcDbEntity
8
0
100
AcDbSpline
70
4
71
3
72
8
73
4
74
0
42
0.000000001
43
0.0000000001
44
0.0000000001
40
-1
40
-1
40
-1
40
-1
40
0
40
0
40
0
40
0
41
1
41
1
41
1
41
1
10
-348.08493460953372
20
230.03935426252926
30
0
10
-347.51417695879519
20
229.64183138486567
30
0
10
-347.37373803444092
20
228.85688641284298
30
0
10
-347.77126091210448
20
228.28612876210451
30
0
0
SPLINE
5
187
100
AcDbEntity
8
0
100
AcDbSpline
70
4
71
3
72
8
73
4
74
0
42
0.000000001
43
0.0000000001
44
0.0000000001
40
-1
40
-1
40
-1
40
-1
40
0
40
0
40
0
40
0
41
1
41
1
41
1
41
1
10
-347.77126091210448
20
228.28612876210451
30
0
10
-349.33692458698488
20
226.4022270190967
30
0
10
-350.71511096170411
20
224.73251259737305
30
0
10
-353.617459048103
20
221.42693616993773
30
0
0
SPLINE
5
188
100
AcDbEntity
8
0
100
AcDbSpline
70
4
71
3
72
8
73
4
74
0
42
0.000000001
43
0.0000000001
44
0.0000000001
40
-1
40
-1
40
-1
40
-1
40
0
40
0
40
0
40
0
41
1
41
1
41
1
41
1
10
-353.617459048103
20
221.42693616993773
30
0
10
-351.98873943728029
20
225.23700234760378
30
0
10
-350.81155442405026
20
227.92093684355342
30
0
10
-349.83816010995849
20
229.72568056510005
30
0
0
SPLINE
5
189
100
AcDbEntity
8
0
100
AcDbSpline
70
4
71
3
72
8
73
4
74
0
42
0.000000001
43
0.0000000001
44
0.0000000001
40
0
40
0
40
0
40
0
40
1
40
1
40
1
40
1
41
1
41
1
41
1
41
1
10
-371.50467839952273
20
229.72568056510005
30
0
10
-370.53128408543091
20
227.92093684355342
30
0
10
-369.354099072201
20
225.23700234760378
30
0
10
-367.72537946137817
20
221.42693616993773
30
0
0
SPLINE
5
190
100
AcDbEntity
8
0
100
AcDbSpline
70
4
71
3
72
8
73
4
74
0
42
0.000000001
43
0.0000000001
44
0.0000000001
40
0
40
0
40
0
40
0
40
1
40
1
40
1
40
1
41
1
41
1
41
1
41
1
10
-367.72537946137817
20
221.42693616993773
30
0
10
-370.62772754777711
20
224.73251259737305
30
0
10
-372.00591392249635
20
226.4022270190967
30
0
10
-373.57157759737669
20
228.28612876210451
30
0
0
SPLINE
5
191
100
AcDbEntity
8
0
100
AcDbSpline
70
4
71
3
72
8
73
4
74
0
42
0.000000001
43
0.0000000001
44
0.0000000001
40
0
40
0
40
0
40
0
40
1
40
1
40
1
40
1
41
1
41
1
41
1
41
1
10
-373.57157759737669
20
228.28612876210451
30
0
10
-373.96910047504031
20
228.85688641284298
30
0
10
-373.82866155068598
20
229.64183138486567
30
0
10
-373.25790389994751
20
230.03935426252926
30
0
0
SPLINE
5
192
100
AcDbEntity
8
0
100
AcDbSpline
70
4
71
3
72
8
73
4
74
0
42
0.000000001
43
0.0000000001
44
0.0000000001
40
0
40
0
40
0
40
0
40
1
40
1
40
1
40
1
41
1
41
1
41
1
41
1
10
-373.25790389994751
20
230.03935426252926
30
0
10
-372.68714624920904
20
230.43687714019285
30
0
10
-371.90220127718635
20
230.29643821583858
30
0
10
-371.50467839952273
20
229.72568056510005
30
0
0
SPLINE
5
193
100
AcDbEntity
8
0
100
AcDbSpline
70
4
71
3
72
8
73
4
74
0
42
0.000000001
43
0.0000000001
44
0.0000000001
40
-1
40
-1
40
-1
40
-1
40
0
40
0
40
0
40
0
41
1
41
1
41
1
41
1
10
-335.45591256518065
20
187.11761819854246
30
0
10
-342.29820008068725
20
189.91430955581538
30
0
10
-343.47365232355958
20
185.29364495229487
30
0
10
-349.64649880332399
20
192.18208332708375
30
0
0
SPLINE
5
194
100
AcDbEntity
8
0
100
AcDbSpline
70
4
71
3
72
8
73
4
74
0
42
0.000000001
43
0.0000000001
44
0.0000000001
40
-1
40
-1
40
-1
40
-1
40
0
40
0
40
0
40
0
41
1
41
1
41
1
41
1
10
-349.64649880332399
20
192.18208332708375
30
0
10
-346.54564285424317
20
191.06199521027344
30
0
10
-343.59515756205445
20
194.17210668882569
30
0
10
-345.19357482296385
20
196.85528045632563
30
0
0
SPLINE
5
195
100
AcDbEntity
8
0
100
AcDbSpline
70
4
71
3
72
8
73
4
74
0
42
0.000000001
43
0.0000000001
44
0.0000000001
40
-1
40
-1
40
-1
40
-1
40
0
40
0
40
0
40
0
41
1
41
1
41
1
41
1
10
-345.19357482296385
20
196.85528045632563
30
0
10
-342.51040105546389
20
195.25686319541623
30
0
10
-339.40028957691169
20
198.20730622491328
30
0
10
-340.52037769372197
20
201.3082044366858
30
0
0
SPLINE
5
196
100
AcDbEntity
8
0
100
AcDbSpline
70
4
71
3
72
8
73
4
74
0
42
0.000000001
43
0.0000000001
44
0.0000000001
40
-1
40
-1
40
-1
40
-1
40
0
40
0
40
0
40
0
41
1
41
1
41
1
41
1
10
-340.52037769372197
20
201.3082044366858
30
0
10
-333.63189705624143
20
195.13535795692135
30
0
10
-338.2526039224536
20
193.95994797674069
30
0
10
-335.45591256518065
20
187.11761819854246
30
0
0
SPLINE
5
197
100
AcDbEntity
8
0
100
AcDbSpline
70
4
71
3
72
8
73
4
74
0
42
0.000000001
43
0.0000000001
44
0.0000000001
40
0
40
0
40
0
40
0
40
1
40
1
40
1
40
1
41
1
41
1
41
1
41
1
10
-334.2824889315076
20
175.44466276470459
30
0
10
-331.96391540487554
20
170.11516829682367
30
0
10
-340.11157067738765
20
165.60138604048706
30
0
10
-346.18636771252318
20
168.51028484409176
30
0
0
SPLINE
5
198
100
AcDbEntity
8
0
100
AcDbSpline
70
4
71
3
72
8
73
4
74
0
42
0.000000001
43
0.0000000001
44
0.0000000001
40
0
40
0
40
0
40
0
40
1
40
1
40
1
40
1
41
1
41
1
41
1
41
1
10
-346.18636771252318
20
168.51028484409176
30
0
10
-354.99949132776243
20
173.36314067553957
30
0
10
-357.89626073886353
20
184.62826113495112
30
0
10
-358.41216141583982
20
189.20759282603754
30
0
0
SPLINE
5
199
100
AcDbEntity
8
0
100
AcDbSpline
70
4
71
3
72
8
73
4
74
0
42
0.000000001
43
0.0000000001
44
0.0000000001
40
0
40
0
40
0
40
0
40
1
40
1
40
1
40
1
41
1
41
1
41
1
41
1
10
-358.41216141583982
20
189.20759282603754
30
0
10
-355.97157549841307
20
187.24656167076779
30
0
10
-352.91729303553103
20
188.39019010682739
30
0
10
-351.76884665262332
20
190.84041191795041
30
0
0
SPLINE
5
200
100
AcDbEntity
8
0
100
AcDbSpline
70
4
71
3
72
8
73
4
74
0
42
0.000000001
43
0.0000000001
44
0.0000000001
40
3.0428118389103985e-06
40
3.0428118389103985e-06
40
3.0428118389103985e-06
40
3.0428118389103985e-06
40
1
40
1
40
1
40
1
41
1
41
1
41
1
41
1
10
-351.76884357006946
20
190.84041047312294
30
0
10
-351.43114955286035
20
186.05236730965737
30
0
10
-348.44157120482396
20
182.80771423570462
30
0
10
-342.44070987693237
20
183.81631030296381
30
0
0
SPLINE
5
201
100
AcDbEntity
8
0
100
AcDbSpline
70
4
71
3
72
8
73
4
74
0
42
0.000000001
43
0.0000000001
44
0.0000000001
40
0
40
0
40
0
40
0
40
1
40
1
40
1
40
1
41
1
41
1
41
1
41
1
10
-342.44070987693237
20
183.81631030296381
30
0
10
-347.3417029141699
20
180.1523885130249
30
0
10
-343.97822659917352
20
172.03220399008541
30
0
10
-339.21475636056641
20
174.54734129558346
30
0
0
SPLINE
5
202
100
AcDbEntity
8
0
100
AcDbSpline
70
4
71
3
72
8
73
4
74
0
42
0.000000001
43
0.0000000001
44
0.0000000001
40
0
40
0
40
0
40
0
40
1
40
1
40
1
40
1
41
1
41
1
41
1
41
1
10
-339.21475636056641
20
174.54734129558346
30
0
10
-340.72252014788575
20
178.08967332164428
30
0
10
-336.76106900872804
20
179.81289231099731
30
0
10
-334.2824889315076
20
175.44466276470459
30
0
0
SPLINE
5
203
100
AcDbEntity
8
0
100
AcDbSpline
70
4
71
3
72
8
73
4
74
0
42
0.000000001
43
0.0000000001
44
0.0000000001
40
-1
40
-1
40
-1
40
-1
40
-3.0428118436122572e-06
40
-3.0428118436122572e-06
40
-3.0428118436122572e-06
40
-3.0428118436122572e-06
41
1
41
1
41
1
41
1
10
-332.15456240691037
20
194.10245777298582
30
0
10
-331.1459663396513
20
200.10331910087729
30
0
10
-334.39061941360387
20
203.09289744891385
30
0
10
-339.17866257706947
20
203.43059146612288
30
0
0
SPLINE
5
204
100
AcDbEntity
8
0
100
AcDbSpline
70
4
71
3
72
8
73
4
74
0
42
0.000000001
43
0.0000000001
44
0.0000000001
40
-1
40
-1
40
-1
40
-1
40
0
40
0
40
0
40
0
41
1
41
1
41
1
41
1
10
-339.17866402189696
20
203.43059454867671
30
0
10
-336.72844221077401
20
204.57904093158447
30
0
10
-335.58481377471435
20
207.63332339446652
30
0
10
-337.54584492998413
20
210.07390931189326
30
0
0
SPLINE
5
205
100
AcDbEntity
8
0
100
AcDbSpline
70
4
71
3
72
8
73
4
74
0
42
0.000000001
43
0.0000000001
44
0.0000000001
40
-1
40
-1
40
-1
40
-1
40
0
40
0
40
0
40
0
41
1
41
1
41
1
41
1
10
-337.54584492998413
20
210.07390931189326
30
0
10
-332.96651323889768
20
209.55800863491697
30
0
10
-321.70139277948607
20
206.66123922381587
30
0
10
-316.84853694803837
20
197.84811560857662
30
0
0
SPLINE
5
206
100
AcDbEntity
8
0
100
AcDbSpline
70
4
71
3
72
8
73
4
74
0
42
0.000000001
43
0.0000000001
44
0.0000000001
40
-1
40
-1
40
-1
40
-1
40
0
40
0
40
0
40
0
41
1
41
1
41
1
41
1
10
-316.84853694803837
20
197.84811560857662
30
0
10
-313.93963814443362
20
191.77331857344114
30
0
10
-318.45342040077026
20
183.62566330092898
30
0
10
-323.78291486865112
20
185.94423682756099
30
0
0
SPLINE
5
207
100
AcDbEntity
8
0
100
AcDbSpline
70
4
71
3
72
8
73
4
74
0
42
0.000000001
43
0.0000000001
44
0.0000000001
40
-1
40
-1
40
-1
40
-1
40
0
40
0
40
0
40
0
41
1
41
1
41
1
41
1
10
-323.78291486865112
20
185.94423682756099
30
0
10
-328.15114441494387
20
188.42281690478146
30
0
10
-326.42792542559079
20
192.38426804393919
30
0
10
-322.88559339953002
20
190.87650425661985
30
0
0
SPLINE
5
208
100
AcDbEntity
8
0
100
AcDbSpline
70
4
71
3
72
8
73
4
74
0
42
0.000000001
43
0.0000000001
44
0.0000000001
40
-1
40
-1
40
-1
40
-1
40
0
40
0
40
0
40
0
41
1
41
1
41
1
41
1
10
-322.88559339953002
20
190.87650425661985
30
0
10
-320.37045609403202
20
195.63997449522702
30
0
10
-328.49064061697152
20
199.00345081022337
30
0
10
-332.15456240691037
20
194.10245777298582
30
0
0
SPLINE
5
209
100
AcDbEntity
8
0
100
AcDbSpline
70
4
71
3
72
8
73
4
74
0
42
0.000000001
43
0.0000000001
44
0.0000000001
40
-1
40
-1
40
-1
40
-1
40
0
40
0
40
0
40
0
41
1
41
1
41
1
41
1
10
-340.39363188146245
20
209.30253066389037
30
0
10
-339.7186966958057
20
209.13445193919677
30
0
10
-339.30777654488895
20
208.45106421520995
30
0
10
-339.4758552695825
20
207.7761290295532
30
0
0
SPLINE
5
210
100
AcDbEntity
8
0
100
AcDbSpline
70
4
71
3
72
8
73
4
74
0
42
0.000000001
43
0.0000000001
44
0.0000000001
40
-1
40
-1
40
-1
40
-1
40
0
40
0
40
0
40
0
41
1
41
1
41
1
41
1
10
-339.4758552695825
20
207.7761290295532
30
0
10
-339.64389173158452
20
207.10119384389645
30
0
10
-340.32732171826297
20
206.6902736929797
30
0
10
-341.00225690391966
20
206.85835241767336
30
0
0
SPLINE
5
211
100
AcDbEntity
8
0
100
AcDbSpline
70
4
71
3
72
8
73
4
74
0
42
0.000000001
43
0.0000000001
44
0.0000000001
40
-1
40
-1
40
-1
40
-1
40
0
40
0
40
0
40
0
41
1
41
1
41
1
41
1
10
-341.00225690391966
20
206.85835241767336
30
0
10
-343.32036554094367
20
207.65001715766843
30
0
10
-345.37154301750371
20
208.34278719920164
30
0
10
-349.49431085069091
20
209.87683838072746
30
0
0
SPLINE
5
212
100
AcDbEntity
8
0
100
AcDbSpline
70
4
71
3
72
8
73
4
74
0
42
0.000000001
43
0.0000000001
44
0.0000000001
40
-1
40
-1
40
-1
40
-1
40
0
40
0
40
0
40
0
41
1
41
1
41
1
41
1
10
-349.49431085069091
20
209.87683838072746
30
0
10
-345.35396173777713
20
209.71256329828242
30
0
10
-342.42672092599605
20
209.56899693474611
30
0
10
-340.39363188146245
20
209.30253066389037
30
0
0
SPLINE
5
213
100
AcDbEntity
8
0
100
AcDbSpline
70
4
71
3
72
8
73
4
74
0
42
0.000000001
43
0.0000000001
44
0.0000000001
40
-1
40
-1
40
-1
40
-1
40
0
40
0
40
0
40
0
41
1
41
1
41
1
41
1
10
-371.50467839952273
20
195.59910647240116
30
0
10
-371.90220127718635
20
195.02834882166255
30
0
10
-372.68714624920904
20
194.8879098973083
30
0
10
-373.25790389994751
20
195.28543277497189
30
0
0
SPLINE
5
214
100
AcDbEntity
8
0
100
AcDbSpline
70
4
71
3
72
8
73
4
74
0
42
0.000000001
43
0.0000000001
44
0.0000000001
40
-1
40
-1
40
-1
40
-1
40
0
40
0
40
0
40
0
41
1
41
1
41
1
41
1
10
-373.25790389994751
20
195.28543277497189
30
0
10
-373.82866155068598
20
195.68295565263548
30
0
10
-373.96910047504031
20
196.46790062465817
30
0
10
-373.57157759737669
20
197.03865827539664
30
0
0
SPLINE
5
215
100
AcDbEntity
8
0
100
AcDbSpline
70
4
71
3
72
8
73
4
74
0
42
0.000000001
43
0.0000000001
44
0.0000000001
40
-1
40
-1
40
-1
40
-1
40
0
40
0
40
0
40
0
41
1
41
1
41
1
41
1
10
-373.57157759737669
20
197.03865827539664
30
0
10
-372.00591392249635
20
198.92256001840451
30
0
10
-370.62772754777711
20
200.59227444012819
30
0
10
-367.72537946137817
20
203.89785086756348
30
0
0
SPLINE
5
216
100
AcDbEntity
8
0
100
AcDbSpline
70
4
71
3
72
8
73
4
74
0
42
0.000000001
43
0.0000000001
44
0.0000000001
40
-1
40
-1
40
-1
40
-1
40
0
40
0
40
0
40
0
41
1
41
1
41
1
41
1
10
-367.72537946137817
20
203.89785086756348
30
0
10
-369.354099072201
20
200.08778468989746
30
0
10
-370.53128408543091
20
197.40385019394773
30
0
10
-371.50467839952273
20
195.59910647240116
30
0
0
SPLINE
5
217
100
AcDbEntity
8
0
100
AcDbSpline
70
4
71
3
72
8
73
4
74
0
42
0.000000001
43
0.0000000001
44
0.0000000001
40
0
40
0
40
0
40
0
40
1
40
1
40
1
40
1
41
1
41
1
41
1
41
1
10
-387.06034957797374
20
249.22167153688352
30
0
10
-389.37892310460569
20
254.55116600476433
30
0
10
-381.23126783209352
20
259.06494826110105
30
0
10
-375.15647079695805
20
256.15604945749629
30
0
0
SPLINE
5
218
100
AcDbEntity
8
0
100
AcDbSpline
70
4
71
3
72
8
73
4
74
0
42
0.000000001
43
0.0000000001
44
0.0000000001
40
0
40
0
40
0
40
0
40
1
40
1
40
1
40
1
41
1
41
1
41
1
41
1
10
-375.15647079695805
20
256.15604945749629
30
0
10
-366.3433471817188
20
251.30319362604854
30
0
10
-363.44657777061769
20
240.03807316663696
30
0
10
-362.93067709364141
20
235.45874147555054
30
0
0
SPLINE
5
219
100
AcDbEntity
8
0
100
AcDbSpline
70
4
71
3
72
8
73
4
74
0
42
0.000000001
43
0.0000000001
44
0.0000000001
40
0
40
0
40
0
40
0
40
1
40
1
40
1
40
1
41
1
41
1
41
1
41
1
10
-362.93067709364141
20
235.45874147555054
30
0
10
-365.37126301106809
20
237.41977263082026
30
0
10
-368.42554547395019
20
236.27614419476072
30
0
10
-369.57399185685796
20
233.8259223836377
30
0
0
SPLINE
5
220
100
AcDbEntity
8
0
100
AcDbSpline
70
4
71
3
72
8
73
4
74
0
42
0.000000001
43
0.0000000001
44
0.0000000001
40
3.0428118398944962e-06
40
3.0428118398944962e-06
40
3.0428118398944962e-06
40
3.0428118398944962e-06
40
1
40
1
40
1
40
1
41
1
41
1
41
1
41
1
10
-369.57399493941176
20
233.82592382846514
30
0
10
-369.91168895662071
20
238.61396699193074
30
0
10
-372.90126730465727
20
241.8586200658834
30
0
10
-378.90212863254885
20
240.85002399862421
30
0
0
SPLINE
5
221
100
AcDbEntity
8
0
100
AcDbSpline
70
4
71
3
72
8
73
4
74
0
42
0.000000001
43
0.0000000001
44
0.0000000001
40
0
40
0
40
0
40
0
40
1
40
1
40
1
40
1
41
1
41
1
41
1
41
1
10
-378.90212863254885
20
240.85002399862421
30
0
10
-374.00113559531127
20
244.51394578856321
30
0
10
-377.36461191030764
20
252.63413031150264
30
0
10
-382.12808214891481
20
250.11899300600462
30
0
0
SPLINE
5
222
100
AcDbEntity
8
0
100
AcDbSpline
70
4
71
3
72
8
73
4
74
0
42
0.000000001
43
0.0000000001
44
0.0000000001
40
0
40
0
40
0
40
0
40
1
40
1
40
1
40
1
41
1
41
1
41
1
41
1
10
-382.12808214891481
20
250.11899300600462
30
0
10
-380.62031836159548
20
246.57666097994382
30
0
10
-384.58176950075318
20
244.85344199059082
30
0
10
-387.06034957797374
20
249.22167153688352
30
0
0
SPLINE
5
223
100
AcDbEntity
8
0
100
AcDbSpline
70
4
71
3
72
8
73
4
74
0
42
0.000000001
43
0.0000000001
44
0.0000000001
40
-1
40
-1
40
-1
40
-1
40
0
40
0
40
0
40
0
41
1
41
1
41
1
41
1
10
-385.88692594430051
20
237.54871610304562
30
0
10
-379.04463842879397
20
234.75202474577273
30
0
10
-377.86918618592159
20
239.37268934929321
30
0
10
-371.69633970615729
20
232.48425097450436
30
0
0
SPLINE
5
224
100
AcDbEntity
8
0
100
AcDbSpline
70
4
71
3
72
8
73
4
74
0
42
0.000000001
43
0.0000000001
44
0.0000000001
40
-1
40
-1
40
-1
40
-1
40
0
40
0
40
0
40
0
41
1
41
1
41
1
41
1
10
-371.69633970615729
20
232.48425097450436
30
0
10
-374.797195655238
20
233.60433909131467
30
0
10
-377.74768094742677
20
230.49422761276242
30
0
10
-376.14926368651737
20
227.81105384526242
30
0
0
SPLINE
5
225
100
AcDbEntity
8
0
100
AcDbSpline
70
4
71
3
72
8
73
4
74
0
42
0.000000001
43
0.0000000001
44
0.0000000001
40
-1
40
-1
40
-1
40
-1
40
0
40
0
40
0
40
0
41
1
41
1
41
1
41
1
10
-376.14926368651737
20
227.81105384526242
30
0
10
-378.83243745401734
20
229.40947110617188
30
0
10
-381.94254893256959
20
226.45902807667483
30
0
10
-380.82246081575931
20
223.35812986490231
30
0
0
SPLINE
5
226
100
AcDbEntity
8
0
100
AcDbSpline
70
4
71
3
72
8
73
4
74
0
42
0.000000001
43
0.0000000001
44
0.0000000001
40
-1
40
-1
40
-1
40
-1
40
0
40
0
40
0
40
0
41
1
41
1
41
1
41
1
10
-380.82246081575931
20
223.35812986490231
30
0
10
-387.7109414532398
20
229.53097634466673
30
0
10
-383.09023458702762
20
230.70638632484736
30
0
10
-385.88692594430051
20
237.54871610304562
30
0
0
SPLINE
5
227
100
AcDbEntity
8
0
100
AcDbSpline
70
4
71
3
72
8
73
4
74
0
42
0.000000001
43
0.0000000001
44
0.0000000001
40
-1
40
-1
40
-1
40
-1
40
0
40
0
40
0
40
0
41
1
41
1
41
1
41
1
10
-380.94920662801883
20
216.02225637361087
30
0
10
-381.62414181367558
20
216.19033509830444
30
0
10
-382.03506196459227
20
216.87372282229126
30
0
10
-381.86698323989873
20
217.54865800794803
30
0
0
SPLINE
5
228
100
AcDbEntity
8
0
100
AcDbSpline
70
4
71
3
72
8
73
4
74
0
42
0.000000001
43
0.0000000001
44
0.0000000001
40
-1
40
-1
40
-1
40
-1
40
0
40
0
40
0
40
0
41
1
41
1
41
1
41
1
10
-381.86698323989873
20
217.54865800794803
30
0
10
-381.69894677789677
20
218.2235931936047
30
0
10
-381.01551679121826
20
218.63451334452148
30
0
10
-380.34058160556157
20
218.46643461982785
30
0
0
SPLINE
5
229
100
AcDbEntity
8
0
100
AcDbSpline
70
4
71
3
72
8
73
4
74
0
42
0.000000001
43
0.0000000001
44
0.0000000001
40
-1
40
-1
40
-1
40
-1
40
0
40
0
40
0
40
0
41
1
41
1
41
1
41
1
10
-380.34058160556157
20
218.46643461982785
30
0
10
-378.02247296853761
20
217.67476987983272
30
0
10
-375.97129549197757
20
216.98199983829952
30
0
10
-371.84852765879032
20
215.44794865677369
30
0
0
SPLINE
5
230
100
AcDbEntity
8
0
100
AcDbSpline
70
4
71
3
72
8
73
4
74
0
42
0.000000001
43
0.0000000001
44
0.0000000001
40
-1
40
-1
40
-1
40
-1
40
0
40
0
40
0
40
0
41
1
41
1
41
1
41
1
10
-371.84852765879032
20
215.44794865677369
30
0
10
-375.9888767717041
20
215.61222373921873
30
0
10
-378.91611758348512
20
215.7557901027551
30
0
10
-380.94920662801883
20
216.02225637361087
30
0
0
LWPOLYLINE
5
231
100
AcDbEntity
8
0
100
AcDbPolyline
90
18
70
1
43
0.0
10
-2.5
20
110
10
0
20
110
10
0
20
0
10
-112.5
20
6.8886382452038615e-15
42
0.99999999999999989
10
-337.5
20
0
10
-450
20
0
10
-450
20
110
10
-447.5
20
110
10
-447.5
20
190
10
-450
20
190
10
-450
20
300
10
-265
20
300
10
-265
20
302.5
10
-185
20
302.5
10
-185
20
300
10
-3.944304526105059e-30
20
300
10
0
20
190
10
-2.5
20
190
0
ENDSEC
0
SECTION
2
OBJECTS
0
DICTIONARY
5
C
100
AcDbDictionary
3
ACAD_GROUP
350
D
3
ACAD_MLINESTYLE
350
17
0
DICTIONARY
5
D
100
AcDbDictionary
0
DICTIONARY
5
1A
330
C
100
AcDbDictionary
0
DICTIONARY
5
17
100
AcDbDictionary
0
ENDSEC
0
EOF
